ISO-10303-21;
HEADER;
FILE_DESCRIPTION (( 'STEP AP203' ),
    '1' );
FILE_NAME ('TLR3AP10mƒ¶.STEP',
    '2019-11-13T09:15:59',
    ( '' ),
    ( '' ),
    'SwSTEP 2.0',
    'SolidWorks 2019',
    '' );
FILE_SCHEMA (( 'CONFIG_CONTROL_DESIGN' ));
ENDSEC;

DATA;
#1 = EDGE_CURVE ( 'NONE', #336, #280, #250, .T. ) ;
#2 = LOCAL_TIME ( 18, 15, 59.00000000000000000, #30 ) ;
#3 = DATE_TIME_ROLE ( 'creation_date' ) ;
#4 = EDGE_CURVE ( 'NONE', #199, #192, #173, .T. ) ;
#5 = CARTESIAN_POINT ( 'NONE',  ( -1.590000000000000080, 0.0000000000000000000, 0.6500000000000000222 ) ) ;
#6 = LINE ( 'NONE', #350, #16 ) ;
#7 = CC_DESIGN_APPROVAL ( #316, ( #127 ) ) ;
#8 = ADVANCED_FACE ( 'NONE', ( #138 ), #256, .T. ) ;
#9 = EDGE_LOOP ( 'NONE', ( #191, #110, #194, #66, #217, #223, #332, #47 ) ) ;
#10 = CARTESIAN_POINT ( 'NONE',  ( 0.0000000000000000000, -3.174999999999999822, 0.0000000000000000000 ) ) ;
#11 = CARTESIAN_POINT ( 'NONE',  ( -1.590000000000000080, 2.404999999999999805, 0.4400000000000000022 ) ) ;
#12 = LINE ( 'NONE', #189, #234 ) ;
#13 = EDGE_CURVE ( 'NONE', #82, #280, #340, .T. ) ;
#14 = ORIENTED_EDGE ( 'NONE', *, *, #342, .F. ) ;
#15 =( LENGTH_UNIT ( ) NAMED_UNIT ( * ) SI_UNIT ( .MILLI., .METRE. ) );
#16 = VECTOR ( 'NONE', #128, 1000.000000000000000 ) ;
#17 = ORIENTED_EDGE ( 'NONE', *, *, #148, .F. ) ;
#18 = DIRECTION ( 'NONE',  ( 0.0000000000000000000, 0.0000000000000000000, 1.000000000000000000 ) ) ;
#19 = ORIENTED_EDGE ( 'NONE', *, *, #31, .F. ) ;
#20 = CARTESIAN_POINT ( 'NONE',  ( 1.590000000000000080, 3.174999999999999822, 0.6500000000000000222 ) ) ;
#21 = EDGE_LOOP ( 'NONE', ( #197, #221, #302, #187, #157, #322, #338, #161 ) ) ;
#22 = CARTESIAN_POINT ( 'NONE',  ( 1.590000000000000080, -2.790000000000000036, 0.0000000000000000000 ) ) ;
#23 = MANIFOLD_SOLID_BREP ( '²ÝÎß°Ä1', #231 ) ;
#24 = ORIENTED_EDGE ( 'NONE', *, *, #242, .F. ) ;
#25 = VECTOR ( 'NONE', #116, 1000.000000000000000 ) ;
#26 = CARTESIAN_POINT ( 'NONE',  ( -1.590000000000000080, -2.790000000000000036, 0.0000000000000000000 ) ) ;
#27 = CARTESIAN_POINT ( 'NONE',  ( 0.0000000000000000000, -3.174999999999999822, 0.6500000000000000222 ) ) ;
#28 = EDGE_CURVE ( 'NONE', #78, #349, #258, .T. ) ;
#29 = APPLICATION_PROTOCOL_DEFINITION ( 'international standard', 'config_control_design', 1994, #261 ) ;
#30 = COORDINATED_UNIVERSAL_TIME_OFFSET ( 9, 0, .AHEAD. ) ;
#31 = EDGE_CURVE ( 'NONE', #288, #85, #201, .T. ) ;
#32 = DIRECTION ( 'NONE',  ( -1.000000000000000000, 0.0000000000000000000, 0.0000000000000000000 ) ) ;
#33 = VECTOR ( 'NONE', #228, 1000.000000000000000 ) ;
#34 = PERSON_AND_ORGANIZATION ( #206, #152 ) ;
#35 = ORIENTED_EDGE ( 'NONE', *, *, #178, .F. ) ;
#36 = DIRECTION ( 'NONE',  ( 0.0000000000000000000, 1.000000000000000000, 0.0000000000000000000 ) ) ;
#37 = ADVANCED_FACE ( 'NONE', ( #177 ), #284, .T. ) ;
#38 = DATE_AND_TIME ( #104, #362 ) ;
#39 = EDGE_LOOP ( 'NONE', ( #247, #57, #140, #334 ) ) ;
#40 = CARTESIAN_POINT ( 'NONE',  ( 1.590000000000000080, -3.174999999999999822, 0.0000000000000000000 ) ) ;
#41 = CC_DESIGN_SECURITY_CLASSIFICATION ( #127, ( #341 ) ) ;
#42 = PERSON_AND_ORGANIZATION ( #206, #152 ) ;
#43 = CARTESIAN_POINT ( 'NONE',  ( -1.590000000000000080, 3.174999999999999822, 0.0000000000000000000 ) ) ;
#44 = VECTOR ( 'NONE', #71, 1000.000000000000000 ) ;
#45 = CC_DESIGN_PERSON_AND_ORGANIZATION_ASSIGNMENT ( #118, #179, ( #252 ) ) ;
#46 = DIRECTION ( 'NONE',  ( 0.0000000000000000000, 0.0000000000000000000, 1.000000000000000000 ) ) ;
#47 = ORIENTED_EDGE ( 'NONE', *, *, #312, .T. ) ;
#48 = CARTESIAN_POINT ( 'NONE',  ( -1.590000000000000080, -3.174999999999999822, 0.6500000000000000222 ) ) ;
#49 = ORIENTED_EDGE ( 'NONE', *, *, #267, .F. ) ;
#50 =( NAMED_UNIT ( * ) SI_UNIT ( $, .STERADIAN. ) SOLID_ANGLE_UNIT ( ) );
#51 = VECTOR ( 'NONE', #300, 1000.000000000000000 ) ;
#52 = ORIENTED_EDGE ( 'NONE', *, *, #352, .F. ) ;
#53 = DIRECTION ( 'NONE',  ( 0.0000000000000000000, 0.0000000000000000000, -1.000000000000000000 ) ) ;
#54 = EDGE_CURVE ( 'NONE', #199, #82, #243, .T. ) ;
#55 = ORIENTED_EDGE ( 'NONE', *, *, #13, .F. ) ;
#56 = DIRECTION ( 'NONE',  ( 1.000000000000000000, 0.0000000000000000000, 0.0000000000000000000 ) ) ;
#57 = ORIENTED_EDGE ( 'NONE', *, *, #13, .T. ) ;
#58 = PLANE ( 'NONE',  #295 ) ;
#59 = DIRECTION ( 'NONE',  ( -1.000000000000000000, 0.0000000000000000000, 0.0000000000000000000 ) ) ;
#60 = VECTOR ( 'NONE', #86, 1000.000000000000000 ) ;
#61 = EDGE_CURVE ( 'NONE', #85, #78, #100, .T. ) ;
#62 = CC_DESIGN_PERSON_AND_ORGANIZATION_ASSIGNMENT ( #72, #130, ( #341 ) ) ;
#63 = PERSON_AND_ORGANIZATION_ROLE ( 'creator' ) ;
#64 = VECTOR ( 'NONE', #32, 1000.000000000000000 ) ;
#65 = CARTESIAN_POINT ( 'NONE',  ( 1.590000000000000080, -2.404999999999999805, 0.4400000000000000022 ) ) ;
#66 = ORIENTED_EDGE ( 'NONE', *, *, #115, .T. ) ;
#67 = EDGE_CURVE ( 'NONE', #192, #168, #353, .T. ) ;
#68 = DIRECTION ( 'NONE',  ( 0.0000000000000000000, 1.000000000000000000, 0.0000000000000000000 ) ) ;
#69 = VECTOR ( 'NONE', #330, 1000.000000000000000 ) ;
#70 = ORIENTED_EDGE ( 'NONE', *, *, #119, .T. ) ;
#71 = DIRECTION ( 'NONE',  ( 0.0000000000000000000, 0.0000000000000000000, 1.000000000000000000 ) ) ;
#72 = PERSON_AND_ORGANIZATION ( #206, #152 ) ;
#73 = VERTEX_POINT ( 'NONE', #11 ) ;
#74 = DIRECTION ( 'NONE',  ( -1.000000000000000000, 0.0000000000000000000, 0.0000000000000000000 ) ) ;
#75 = EDGE_CURVE ( 'NONE', #192, #240, #105, .T. ) ;
#76 = CARTESIAN_POINT ( 'NONE',  ( -1.590000000000000080, -2.404999999999999805, 0.0000000000000000000 ) ) ;
#77 = AXIS2_PLACEMENT_3D ( 'NONE', #22, #277, #53 ) ;
#78 = VERTEX_POINT ( 'NONE', #158 ) ;
#79 = LINE ( 'NONE', #174, #255 ) ;
#80 = DIRECTION ( 'NONE',  ( 0.0000000000000000000, 0.0000000000000000000, 1.000000000000000000 ) ) ;
#81 = DIRECTION ( 'NONE',  ( 0.0000000000000000000, -1.000000000000000000, 0.0000000000000000000 ) ) ;
#82 = VERTEX_POINT ( 'NONE', #98 ) ;
#83 = ADVANCED_FACE ( 'NONE', ( #294 ), #270, .T. ) ;
#84 = ORIENTED_EDGE ( 'NONE', *, *, #28, .F. ) ;
#85 = VERTEX_POINT ( 'NONE', #184 ) ;
#86 = DIRECTION ( 'NONE',  ( 1.000000000000000000, 0.0000000000000000000, 0.0000000000000000000 ) ) ;
#87 = DIRECTION ( 'NONE',  ( 1.000000000000000000, 0.0000000000000000000, 0.0000000000000000000 ) ) ;
#88 = COORDINATED_UNIVERSAL_TIME_OFFSET ( 9, 0, .AHEAD. ) ;
#89 = ADVANCED_BREP_SHAPE_REPRESENTATION ( 'TLR3AP10mƒ¶', ( #23, #276 ), #320 ) ;
#90 = PERSON_AND_ORGANIZATION ( #206, #152 ) ;
#91 = UNCERTAINTY_MEASURE_WITH_UNIT (LENGTH_MEASURE( 1.000000000000000082E-05 ), #15, 'distance_accuracy_value', 'NONE');
#92 = ADVANCED_FACE ( 'NONE', ( #183 ), #266, .T. ) ;
#93 = CARTESIAN_POINT ( 'NONE',  ( 0.0000000000000000000, 0.0000000000000000000, 0.0000000000000000000 ) ) ;
#94 = AXIS2_PLACEMENT_3D ( 'NONE', #358, #198, #364 ) ;
#95 = DIRECTION ( 'NONE',  ( 1.000000000000000000, 0.0000000000000000000, 0.0000000000000000000 ) ) ;
#96 = EDGE_CURVE ( 'NONE', #131, #288, #188, .T. ) ;
#97 = APPLICATION_CONTEXT ( 'configuration controlled 3d designs of mechanical parts and assemblies' ) ;
#98 = CARTESIAN_POINT ( 'NONE',  ( 1.590000000000000080, -3.174999999999999822, 0.6500000000000000222 ) ) ;
#99 = EDGE_LOOP ( 'NONE', ( #113, #17, #52, #359 ) ) ;
#100 = LINE ( 'NONE', #43, #207 ) ;
#101 = VECTOR ( 'NONE', #59, 1000.000000000000000 ) ;
#102 = CARTESIAN_POINT ( 'NONE',  ( 0.0000000000000000000, -2.404999999999999805, -0.007500000000000000590 ) ) ;
#103 = EDGE_CURVE ( 'NONE', #131, #227, #181, .T. ) ;
#104 = CALENDAR_DATE ( 2019, 13, 11 ) ;
#105 = LINE ( 'NONE', #102, #64 ) ;
#106 = DIRECTION ( 'NONE',  ( -1.000000000000000000, 0.0000000000000000000, 0.0000000000000000000 ) ) ;
#107 =( NAMED_UNIT ( * ) PLANE_ANGLE_UNIT ( ) SI_UNIT ( $, .RADIAN. ) );
#108 = EDGE_LOOP ( 'NONE', ( #215, #24, #14, #19 ) ) ;
#109 = CARTESIAN_POINT ( 'NONE',  ( -1.590000000000000080, 2.790000000000000036, -0.007500000000000000590 ) ) ;
#110 = ORIENTED_EDGE ( 'NONE', *, *, #4, .T. ) ;
#111 = CARTESIAN_POINT ( 'NONE',  ( -1.590000000000000080, -2.790000000000000036, -0.007500000000000000590 ) ) ;
#112 = AXIS2_PLACEMENT_3D ( 'NONE', #241, #163, #74 ) ;
#113 = ORIENTED_EDGE ( 'NONE', *, *, #4, .F. ) ;
#114 = FACE_OUTER_BOUND ( 'NONE', #21, .T. ) ;
#115 = EDGE_CURVE ( 'NONE', #168, #227, #327, .T. ) ;
#116 = DIRECTION ( 'NONE',  ( -1.000000000000000000, 0.0000000000000000000, 0.0000000000000000000 ) ) ;
#117 = VECTOR ( 'NONE', #355, 1000.000000000000000 ) ;
#118 = PERSON_AND_ORGANIZATION ( #206, #152 ) ;
#119 = EDGE_CURVE ( 'NONE', #240, #298, #209, .T. ) ;
#120 = CALENDAR_DATE ( 2019, 13, 11 ) ;
#121 = PERSON_AND_ORGANIZATION ( #206, #152 ) ;
#122 = DATE_AND_TIME ( #151, #301 ) ;
#123 = VECTOR ( 'NONE', #155, 1000.000000000000000 ) ;
#124 = PERSON_AND_ORGANIZATION ( #206, #152 ) ;
#125 = DIRECTION ( 'NONE',  ( 0.0000000000000000000, 1.000000000000000000, 0.0000000000000000000 ) ) ;
#126 = ORIENTED_EDGE ( 'NONE', *, *, #312, .F. ) ;
#127 = SECURITY_CLASSIFICATION ( '', '', #180 ) ;
#128 = DIRECTION ( 'NONE',  ( 0.0000000000000000000, -1.000000000000000000, 0.0000000000000000000 ) ) ;
#129 = CC_DESIGN_PERSON_AND_ORGANIZATION_ASSIGNMENT ( #314, #63, ( #225 ) ) ;
#130 = PERSON_AND_ORGANIZATION_ROLE ( 'design_supplier' ) ;
#131 = VERTEX_POINT ( 'NONE', #214 ) ;
#132 = CARTESIAN_POINT ( 'NONE',  ( 1.590000000000000080, -2.404999999999999805, -0.007500000000000000590 ) ) ;
#133 = APPROVAL_STATUS ( 'not_yet_approved' ) ;
#134 = DIRECTION ( 'NONE',  ( 0.0000000000000000000, 0.0000000000000000000, 1.000000000000000000 ) ) ;
#135 = FACE_OUTER_BOUND ( 'NONE', #99, .T. ) ;
#136 = EDGE_LOOP ( 'NONE', ( #361, #278, #145, #142 ) ) ;
#137 = LOCAL_TIME ( 18, 15, 59.00000000000000000, #88 ) ;
#138 = FACE_OUTER_BOUND ( 'NONE', #220, .T. ) ;
#139 = LINE ( 'NONE', #224, #60 ) ;
#140 = ORIENTED_EDGE ( 'NONE', *, *, #1, .F. ) ;
#141 = CARTESIAN_POINT ( 'NONE',  ( 0.0000000000000000000, 2.404999999999999805, 0.4400000000000000022 ) ) ;
#142 = ORIENTED_EDGE ( 'NONE', *, *, #31, .T. ) ;
#143 = EDGE_CURVE ( 'NONE', #298, #168, #12, .T. ) ;
#144 = PLANE ( 'NONE',  #218 ) ;
#145 = ORIENTED_EDGE ( 'NONE', *, *, #190, .F. ) ;
#146 = CARTESIAN_POINT ( 'NONE',  ( 0.0000000000000000000, -2.404999999999999805, 0.0000000000000000000 ) ) ;
#147 = DIRECTION ( 'NONE',  ( -1.000000000000000000, 0.0000000000000000000, 0.0000000000000000000 ) ) ;
#148 = EDGE_CURVE ( 'NONE', #336, #199, #297, .T. ) ;
#149 = CALENDAR_DATE ( 2019, 13, 11 ) ;
#150 = APPROVAL_DATE_TIME ( #122, #346 ) ;
#151 = CALENDAR_DATE ( 2019, 13, 11 ) ;
#152 = ORGANIZATION ( 'UNSPECIFIED', 'UNSPECIFIED', '' ) ;
#153 = DIRECTION ( 'NONE',  ( 0.0000000000000000000, 0.0000000000000000000, -1.000000000000000000 ) ) ;
#154 = APPROVAL_DATE_TIME ( #263, #316 ) ;
#155 = DIRECTION ( 'NONE',  ( 0.0000000000000000000, 0.0000000000000000000, 1.000000000000000000 ) ) ;
#156 = CALENDAR_DATE ( 2019, 13, 11 ) ;
#157 = ORIENTED_EDGE ( 'NONE', *, *, #267, .T. ) ;
#158 = CARTESIAN_POINT ( 'NONE',  ( -1.590000000000000080, 3.174999999999999822, 0.6500000000000000222 ) ) ;
#159 = APPROVAL ( #204, 'UNSPECIFIED' ) ;
#160 = SHAPE_DEFINITION_REPRESENTATION ( #305, #89 ) ;
#161 = ORIENTED_EDGE ( 'NONE', *, *, #352, .T. ) ;
#162 = VECTOR ( 'NONE', #68, 1000.000000000000000 ) ;
#163 = DIRECTION ( 'NONE',  ( 0.0000000000000000000, 0.0000000000000000000, -1.000000000000000000 ) ) ;
#164 = CARTESIAN_POINT ( 'NONE',  ( 0.0000000000000000000, -3.174999999999999822, -0.007500000000000000590 ) ) ;
#165 = EDGE_LOOP ( 'NONE', ( #55, #126, #84, #35 ) ) ;
#166 = DIRECTION ( 'NONE',  ( 0.0000000000000000000, 1.000000000000000000, 0.0000000000000000000 ) ) ;
#167 = ADVANCED_FACE ( 'NONE', ( #135 ), #208, .T. ) ;
#168 = VERTEX_POINT ( 'NONE', #65 ) ;
#169 = VECTOR ( 'NONE', #319, 1000.000000000000000 ) ;
#170 = ORIENTED_EDGE ( 'NONE', *, *, #67, .F. ) ;
#171 = DIRECTION ( 'NONE',  ( 0.0000000000000000000, 0.0000000000000000000, 1.000000000000000000 ) ) ;
#172 = CC_DESIGN_DATE_AND_TIME_ASSIGNMENT ( #38, #324, ( #127 ) ) ;
#173 = LINE ( 'NONE', #308, #51 ) ;
#174 = CARTESIAN_POINT ( 'NONE',  ( -1.590000000000000080, 2.404999999999999805, 0.0000000000000000000 ) ) ;
#175 = CARTESIAN_POINT ( 'NONE',  ( 1.590000000000000080, 0.0000000000000000000, 0.6500000000000000222 ) ) ;
#176 = VECTOR ( 'NONE', #290, 1000.000000000000000 ) ;
#177 = FACE_OUTER_BOUND ( 'NONE', #136, .T. ) ;
#178 = EDGE_CURVE ( 'NONE', #280, #78, #268, .T. ) ;
#179 = PERSON_AND_ORGANIZATION_ROLE ( 'design_owner' ) ;
#180 = SECURITY_CLASSIFICATION_LEVEL ( 'unclassified' ) ;
#181 = LINE ( 'NONE', #216, #315 ) ;
#182 = VECTOR ( 'NONE', #87, 1000.000000000000000 ) ;
#183 = FACE_OUTER_BOUND ( 'NONE', #108, .T. ) ;
#184 = CARTESIAN_POINT ( 'NONE',  ( -1.590000000000000080, 3.174999999999999822, -0.007500000000000000590 ) ) ;
#185 = EDGE_CURVE ( 'NONE', #73, #298, #6, .T. ) ;
#186 = PERSON_AND_ORGANIZATION_ROLE ( 'creator' ) ;
#187 = ORIENTED_EDGE ( 'NONE', *, *, #342, .T. ) ;
#188 = LINE ( 'NONE', #354, #211 ) ;
#189 = CARTESIAN_POINT ( 'NONE',  ( 0.0000000000000000000, -2.404999999999999805, 0.4400000000000000022 ) ) ;
#190 = EDGE_CURVE ( 'NONE', #288, #349, #213, .T. ) ;
#191 = ORIENTED_EDGE ( 'NONE', *, *, #54, .F. ) ;
#192 = VERTEX_POINT ( 'NONE', #132 ) ;
#193 = DIRECTION ( 'NONE',  ( 0.0000000000000000000, 0.0000000000000000000, 1.000000000000000000 ) ) ;
#194 = ORIENTED_EDGE ( 'NONE', *, *, #67, .T. ) ;
#195 = PLANE ( 'NONE',  #77 ) ;
#196 = CC_DESIGN_DATE_AND_TIME_ASSIGNMENT ( #262, #3, ( #225 ) ) ;
#197 = ORIENTED_EDGE ( 'NONE', *, *, #1, .T. ) ;
#198 = DIRECTION ( 'NONE',  ( 0.0000000000000000000, -1.000000000000000000, 0.0000000000000000000 ) ) ;
#199 = VERTEX_POINT ( 'NONE', #282 ) ;
#200 = PLANE ( 'NONE',  #264 ) ;
#201 = LINE ( 'NONE', #310, #101 ) ;
#202 = APPROVAL_STATUS ( 'not_yet_approved' ) ;
#203 = VECTOR ( 'NONE', #81, 1000.000000000000000 ) ;
#204 = APPROVAL_STATUS ( 'not_yet_approved' ) ;
#205 = CC_DESIGN_APPROVAL ( #346, ( #341 ) ) ;
#206 = PERSON ( 'UNSPECIFIED', 'UNSPECIFIED', 'UNSPECIFIED', ('UNSPECIFIED'), ('UNSPECIFIED'), ('UNSPECIFIED') ) ;
#207 = VECTOR ( 'NONE', #46, 1000.000000000000000 ) ;
#208 = PLANE ( 'NONE',  #328 ) ;
#209 = LINE ( 'NONE', #76, #366 ) ;
#210 = ORIENTED_EDGE ( 'NONE', *, *, #242, .T. ) ;
#211 = VECTOR ( 'NONE', #348, 1000.000000000000000 ) ;
#212 = CC_DESIGN_PERSON_AND_ORGANIZATION_ASSIGNMENT ( #42, #186, ( #341 ) ) ;
#213 = LINE ( 'NONE', #323, #44 ) ;
#214 = CARTESIAN_POINT ( 'NONE',  ( 1.590000000000000080, 2.404999999999999805, -0.007500000000000000590 ) ) ;
#215 = ORIENTED_EDGE ( 'NONE', *, *, #96, .F. ) ;
#216 = CARTESIAN_POINT ( 'NONE',  ( 1.590000000000000080, 2.404999999999999805, 0.0000000000000000000 ) ) ;
#217 = ORIENTED_EDGE ( 'NONE', *, *, #103, .F. ) ;
#218 = AXIS2_PLACEMENT_3D ( 'NONE', #279, #18, #56 ) ;
#219 = LINE ( 'NONE', #109, #203 ) ;
#220 = EDGE_LOOP ( 'NONE', ( #351, #275, #269, #365 ) ) ;
#221 = ORIENTED_EDGE ( 'NONE', *, *, #178, .T. ) ;
#222 = CARTESIAN_POINT ( 'NONE',  ( -1.590000000000000080, -3.174999999999999822, -0.007500000000000000590 ) ) ;
#223 = ORIENTED_EDGE ( 'NONE', *, *, #96, .T. ) ;
#224 = CARTESIAN_POINT ( 'NONE',  ( 0.0000000000000000000, 2.404999999999999805, -0.007500000000000000590 ) ) ;
#225 = PRODUCT_DEFINITION ( 'UNKNOWN', '', #341, #344 ) ;
#226 = VECTOR ( 'NONE', #80, 1000.000000000000000 ) ;
#227 = VERTEX_POINT ( 'NONE', #281 ) ;
#228 = DIRECTION ( 'NONE',  ( -1.000000000000000000, 0.0000000000000000000, 0.0000000000000000000 ) ) ;
#229 = CARTESIAN_POINT ( 'NONE',  ( 0.0000000000000000000, 3.174999999999999822, 0.6500000000000000222 ) ) ;
#230 = ADVANCED_FACE ( 'NONE', ( #339 ), #144, .T. ) ;
#231 = CLOSED_SHELL ( 'NONE', ( #83, #331, #249, #233, #285, #37, #8, #230, #92, #167 ) ) ;
#232 = DATE_AND_TIME ( #120, #2 ) ;
#233 = ADVANCED_FACE ( 'NONE', ( #248 ), #195, .T. ) ;
#234 = VECTOR ( 'NONE', #95, 1000.000000000000000 ) ;
#235 = DIRECTION ( 'NONE',  ( 0.0000000000000000000, -1.000000000000000000, 0.0000000000000000000 ) ) ;
#236 = APPROVAL_PERSON_ORGANIZATION ( #34, #316, #347 ) ;
#237 = ORIENTED_EDGE ( 'NONE', *, *, #103, .T. ) ;
#238 = DIRECTION ( 'NONE',  ( 0.0000000000000000000, 0.0000000000000000000, 1.000000000000000000 ) ) ;
#239 = CARTESIAN_POINT ( 'NONE',  ( 0.0000000000000000000, 3.174999999999999822, 0.0000000000000000000 ) ) ;
#240 = VERTEX_POINT ( 'NONE', #303 ) ;
#241 = CARTESIAN_POINT ( 'NONE',  ( 0.0000000000000000000, 2.790000000000000036, -0.007500000000000000590 ) ) ;
#242 = EDGE_CURVE ( 'NONE', #253, #131, #139, .T. ) ;
#243 = LINE ( 'NONE', #40, #169 ) ;
#244 = EDGE_LOOP ( 'NONE', ( #237, #326, #49, #210 ) ) ;
#245 = APPROVAL_PERSON_ORGANIZATION ( #90, #159, #311 ) ;
#246 = FACE_OUTER_BOUND ( 'NONE', #244, .T. ) ;
#247 = ORIENTED_EDGE ( 'NONE', *, *, #54, .T. ) ;
#248 = FACE_OUTER_BOUND ( 'NONE', #9, .T. ) ;
#249 = ADVANCED_FACE ( 'NONE', ( #306 ), #200, .T. ) ;
#250 = LINE ( 'NONE', #304, #226 ) ;
#251 = LINE ( 'NONE', #111, #69 ) ;
#252 = PRODUCT ( 'TLR3AP10mƒ¶', 'TLR3AP10mƒ¶', '', ( #260 ) ) ;
#253 = VERTEX_POINT ( 'NONE', #360 ) ;
#254 = CARTESIAN_POINT ( 'NONE',  ( 1.590000000000000080, 3.174999999999999822, -0.007500000000000000590 ) ) ;
#255 = VECTOR ( 'NONE', #193, 1000.000000000000000 ) ;
#256 = PLANE ( 'NONE',  #356 ) ;
#257 = APPLICATION_PROTOCOL_DEFINITION ( 'international standard', 'config_control_design', 1994, #97 ) ;
#258 = LINE ( 'NONE', #229, #182 ) ;
#259 = DIRECTION ( 'NONE',  ( 1.000000000000000000, 0.0000000000000000000, 0.0000000000000000000 ) ) ;
#260 = MECHANICAL_CONTEXT ( 'NONE', #261, 'mechanical' ) ;
#261 = APPLICATION_CONTEXT ( 'configuration controlled 3d designs of mechanical parts and assemblies' ) ;
#262 = DATE_AND_TIME ( #149, #137 ) ;
#263 = DATE_AND_TIME ( #156, #313 ) ;
#264 = AXIS2_PLACEMENT_3D ( 'NONE', #146, #166, #333 ) ;
#265 = COORDINATED_UNIVERSAL_TIME_OFFSET ( 9, 0, .AHEAD. ) ;
#266 = PLANE ( 'NONE',  #112 ) ;
#267 = EDGE_CURVE ( 'NONE', #253, #73, #79, .T. ) ;
#268 = LINE ( 'NONE', #5, #345 ) ;
#269 = ORIENTED_EDGE ( 'NONE', *, *, #185, .F. ) ;
#270 = PLANE ( 'NONE',  #271 ) ;
#271 = AXIS2_PLACEMENT_3D ( 'NONE', #10, #235, #153 ) ;
#272 = ORIENTED_EDGE ( 'NONE', *, *, #75, .T. ) ;
#273 = CARTESIAN_POINT ( 'NONE',  ( 1.590000000000000080, -2.404999999999999805, 0.0000000000000000000 ) ) ;
#274 = CARTESIAN_POINT ( 'NONE',  ( 1.590000000000000080, 0.0000000000000000000, 0.4400000000000000022 ) ) ;
#275 = ORIENTED_EDGE ( 'NONE', *, *, #143, .F. ) ;
#276 = AXIS2_PLACEMENT_3D ( 'NONE', #93, #343, #259 ) ;
#277 = DIRECTION ( 'NONE',  ( 1.000000000000000000, 0.0000000000000000000, 0.0000000000000000000 ) ) ;
#278 = ORIENTED_EDGE ( 'NONE', *, *, #28, .T. ) ;
#279 = CARTESIAN_POINT ( 'NONE',  ( 0.0000000000000000000, 0.0000000000000000000, 0.6500000000000000222 ) ) ;
#280 = VERTEX_POINT ( 'NONE', #48 ) ;
#281 = CARTESIAN_POINT ( 'NONE',  ( 1.590000000000000080, 2.404999999999999805, 0.4400000000000000022 ) ) ;
#282 = CARTESIAN_POINT ( 'NONE',  ( 1.590000000000000080, -3.174999999999999822, -0.007500000000000000590 ) ) ;
#283 = AXIS2_PLACEMENT_3D ( 'NONE', #239, #36, #134 ) ;
#284 = PLANE ( 'NONE',  #283 ) ;
#285 = ADVANCED_FACE ( 'NONE', ( #246 ), #367, .T. ) ;
#286 = DIRECTION ( 'NONE',  ( 0.0000000000000000000, 0.0000000000000000000, -1.000000000000000000 ) ) ;
#287 = CC_DESIGN_APPROVAL ( #159, ( #225 ) ) ;
#288 = VERTEX_POINT ( 'NONE', #254 ) ;
#289 = DIRECTION ( 'NONE',  ( 0.0000000000000000000, 0.0000000000000000000, 1.000000000000000000 ) ) ;
#290 = DIRECTION ( 'NONE',  ( 1.000000000000000000, 0.0000000000000000000, 0.0000000000000000000 ) ) ;
#291 = APPROVAL_PERSON_ORGANIZATION ( #121, #346, #317 ) ;
#292 = PERSON_AND_ORGANIZATION_ROLE ( 'classification_officer' ) ;
#293 = EDGE_LOOP ( 'NONE', ( #70, #357, #170, #272 ) ) ;
#294 = FACE_OUTER_BOUND ( 'NONE', #39, .T. ) ;
#295 = AXIS2_PLACEMENT_3D ( 'NONE', #26, #106, #171 ) ;
#296 = COORDINATED_UNIVERSAL_TIME_OFFSET ( 9, 0, .AHEAD. ) ;
#297 = LINE ( 'NONE', #164, #176 ) ;
#298 = VERTEX_POINT ( 'NONE', #335 ) ;
#299 = LINE ( 'NONE', #141, #33 ) ;
#300 = DIRECTION ( 'NONE',  ( 0.0000000000000000000, 1.000000000000000000, 0.0000000000000000000 ) ) ;
#301 = LOCAL_TIME ( 18, 15, 59.00000000000000000, #296 ) ;
#302 = ORIENTED_EDGE ( 'NONE', *, *, #61, .F. ) ;
#303 = CARTESIAN_POINT ( 'NONE',  ( -1.590000000000000080, -2.404999999999999805, -0.007500000000000000590 ) ) ;
#304 = CARTESIAN_POINT ( 'NONE',  ( -1.590000000000000080, -3.174999999999999822, 0.0000000000000000000 ) ) ;
#305 = PRODUCT_DEFINITION_SHAPE ( 'NONE', 'NONE',  #225 ) ;
#306 = FACE_OUTER_BOUND ( 'NONE', #293, .T. ) ;
#307 = EDGE_CURVE ( 'NONE', #227, #73, #299, .T. ) ;
#308 = CARTESIAN_POINT ( 'NONE',  ( 1.590000000000000080, -2.790000000000000036, -0.007500000000000000590 ) ) ;
#309 = LINE ( 'NONE', #175, #117 ) ;
#310 = CARTESIAN_POINT ( 'NONE',  ( 0.0000000000000000000, 3.174999999999999822, -0.007500000000000000590 ) ) ;
#311 = APPROVAL_ROLE ( '' ) ;
#312 = EDGE_CURVE ( 'NONE', #349, #82, #309, .T. ) ;
#313 = LOCAL_TIME ( 18, 15, 59.00000000000000000, #321 ) ;
#314 = PERSON_AND_ORGANIZATION ( #206, #152 ) ;
#315 = VECTOR ( 'NONE', #289, 1000.000000000000000 ) ;
#316 = APPROVAL ( #133, 'UNSPECIFIED' ) ;
#317 = APPROVAL_ROLE ( '' ) ;
#318 = DIRECTION ( 'NONE',  ( -1.000000000000000000, 0.0000000000000000000, 0.0000000000000000000 ) ) ;
#319 = DIRECTION ( 'NONE',  ( 0.0000000000000000000, 0.0000000000000000000, 1.000000000000000000 ) ) ;
#320 =( GEOMETRIC_REPRESENTATION_CONTEXT ( 3 ) GLOBAL_UNCERTAINTY_ASSIGNED_CONTEXT ( ( #91 ) ) GLOBAL_UNIT_ASSIGNED_CONTEXT ( ( #15, #107, #50 ) ) REPRESENTATION_CONTEXT ( 'NONE', 'WORKASPACE' ) );
#321 = COORDINATED_UNIVERSAL_TIME_OFFSET ( 9, 0, .AHEAD. ) ;
#322 = ORIENTED_EDGE ( 'NONE', *, *, #185, .T. ) ;
#323 = CARTESIAN_POINT ( 'NONE',  ( 1.590000000000000080, 3.174999999999999822, 0.0000000000000000000 ) ) ;
#324 = DATE_TIME_ROLE ( 'classification_date' ) ;
#325 = CARTESIAN_POINT ( 'NONE',  ( 0.0000000000000000000, -2.790000000000000036, -0.007500000000000000590 ) ) ;
#326 = ORIENTED_EDGE ( 'NONE', *, *, #307, .T. ) ;
#327 = LINE ( 'NONE', #274, #162 ) ;
#328 = AXIS2_PLACEMENT_3D ( 'NONE', #325, #286, #318 ) ;
#329 = DIRECTION ( 'NONE',  ( 0.0000000000000000000, 0.0000000000000000000, -1.000000000000000000 ) ) ;
#330 = DIRECTION ( 'NONE',  ( 0.0000000000000000000, -1.000000000000000000, 0.0000000000000000000 ) ) ;
#331 = ADVANCED_FACE ( 'NONE', ( #114 ), #58, .T. ) ;
#332 = ORIENTED_EDGE ( 'NONE', *, *, #190, .T. ) ;
#333 = DIRECTION ( 'NONE',  ( 0.0000000000000000000, 0.0000000000000000000, 1.000000000000000000 ) ) ;
#334 = ORIENTED_EDGE ( 'NONE', *, *, #148, .T. ) ;
#335 = CARTESIAN_POINT ( 'NONE',  ( -1.590000000000000080, -2.404999999999999805, 0.4400000000000000022 ) ) ;
#336 = VERTEX_POINT ( 'NONE', #222 ) ;
#337 = PRODUCT_RELATED_PRODUCT_CATEGORY ( 'detail', '', ( #252 ) ) ;
#338 = ORIENTED_EDGE ( 'NONE', *, *, #119, .F. ) ;
#339 = FACE_OUTER_BOUND ( 'NONE', #165, .T. ) ;
#340 = LINE ( 'NONE', #27, #25 ) ;
#341 = PRODUCT_DEFINITION_FORMATION_WITH_SPECIFIED_SOURCE ( 'ANY', '', #252, .NOT_KNOWN. ) ;
#342 = EDGE_CURVE ( 'NONE', #85, #253, #219, .T. ) ;
#343 = DIRECTION ( 'NONE',  ( 0.0000000000000000000, 0.0000000000000000000, 1.000000000000000000 ) ) ;
#344 = DESIGN_CONTEXT ( 'detailed design', #97, 'design' ) ;
#345 = VECTOR ( 'NONE', #125, 1000.000000000000000 ) ;
#346 = APPROVAL ( #202, 'UNSPECIFIED' ) ;
#347 = APPROVAL_ROLE ( '' ) ;
#348 = DIRECTION ( 'NONE',  ( 0.0000000000000000000, 1.000000000000000000, 0.0000000000000000000 ) ) ;
#349 = VERTEX_POINT ( 'NONE', #20 ) ;
#350 = CARTESIAN_POINT ( 'NONE',  ( -1.590000000000000080, 0.0000000000000000000, 0.4400000000000000022 ) ) ;
#351 = ORIENTED_EDGE ( 'NONE', *, *, #115, .F. ) ;
#352 = EDGE_CURVE ( 'NONE', #240, #336, #251, .T. ) ;
#353 = LINE ( 'NONE', #273, #123 ) ;
#354 = CARTESIAN_POINT ( 'NONE',  ( 1.590000000000000080, 2.790000000000000036, -0.007500000000000000590 ) ) ;
#355 = DIRECTION ( 'NONE',  ( 0.0000000000000000000, -1.000000000000000000, 0.0000000000000000000 ) ) ;
#356 = AXIS2_PLACEMENT_3D ( 'NONE', #368, #329, #147 ) ;
#357 = ORIENTED_EDGE ( 'NONE', *, *, #143, .T. ) ;
#358 = CARTESIAN_POINT ( 'NONE',  ( 0.0000000000000000000, 2.404999999999999805, 0.0000000000000000000 ) ) ;
#359 = ORIENTED_EDGE ( 'NONE', *, *, #75, .F. ) ;
#360 = CARTESIAN_POINT ( 'NONE',  ( -1.590000000000000080, 2.404999999999999805, -0.007500000000000000590 ) ) ;
#361 = ORIENTED_EDGE ( 'NONE', *, *, #61, .T. ) ;
#362 = LOCAL_TIME ( 18, 15, 59.00000000000000000, #265 ) ;
#363 = CC_DESIGN_PERSON_AND_ORGANIZATION_ASSIGNMENT ( #124, #292, ( #127 ) ) ;
#364 = DIRECTION ( 'NONE',  ( 0.0000000000000000000, 0.0000000000000000000, -1.000000000000000000 ) ) ;
#365 = ORIENTED_EDGE ( 'NONE', *, *, #307, .F. ) ;
#366 = VECTOR ( 'NONE', #238, 1000.000000000000000 ) ;
#367 = PLANE ( 'NONE',  #94 ) ;
#368 = CARTESIAN_POINT ( 'NONE',  ( 0.0000000000000000000, 0.0000000000000000000, 0.4400000000000000022 ) ) ;
#369 = APPROVAL_DATE_TIME ( #232, #159 ) ;
ENDSEC;
END-ISO-10303-21;
